akk.silacheloveka.ru
Аккорды песен

 


Аккорды песен

Добро пожаловать на сайт с текстами песен и аккордами! Введите название песни или исполнителя и нажмите на кнопку поиска. Удачного просмотра нашего сайта.А  Б  В  Г  Д  Е  Ё  Ж  З  И  К  Л  М  Н  О  П  Р  С  Т  У  Ф  Х  Ц  Ч  Ш  Э  Ю  Я  
A  B  C  D  E  F  G  H  I  J  K  L  M  N  O  P  R  S  T  U  V  W  X  Y  Z  
Аккорды - "Hallowed Be Thy Name (Shallow Be My Grave)" - Cradle Of Filth

Аккорды - Cradle Of Filth - "Hallowed Be Thy Name (Shallow Be My Grave)"


Privet  vsem poklonnikam etoi zamechiatelnoi gruppi Cradle of Filth.
vot otrivak iz etoi pesni
ja raspeshu na 2-x getarax, tam  dve getari pochti vezde odno i toze igrajut no gde est
izmenija ja napisal , prostite chto ne vsiu pesniu napisal no bolshe ja ne znaju.
No opiat´ze chto bi sigrat nuzno slushat etu pesniu .   Vivat BLACK METAL

1.Distortion guitar

2)--^----------------------|-^----------------------|-^-----------------------|
3)-14--12--11-12-11--9--11-|-14--12--11-12-11--9--8-|-14--12--11-12-11--9--11-|

2)-10h12-10h12-10h12-10h12-10h12-10h12-10h12-10h12-|-^-----------------------|
3)-------------------------------------------------|-14--12--11-12-11--9--11-|

2)-^----------------------|-^-----------------------|-10h12-10h12-10h12-10h12-10h12-10h12-10h12-|
3)-14--12--11-12-11--9--8-|-14--12--11-12-11--9--11-|-------------------------------------------|

3)-----------------4------------|---------------4-------------|
4)---4-5-4-5-7-5-4---5-4-5-4----|---4---4-5-4-7---5-4-5-4-----|
5)-7-------------------------7~-|-7---7-------------------7---|

3)-----------------4------------|---------------4-------------|
4)---4-5-4-5-7-5-4---5-4-5-4----|---4---4-5-4-7---5-4-5-4-----|
5)-7-------------------------7~-|-7---7-------------------7---|

3)-----------------4------------|---------------4-------------|
4)---4-5-4-5-7-5-4---5-4-5-4----|---4---4-5-4-7---5-4-5-4-----|
5)-7-------------------------7~-|-7---7-------------------7---|

3)-----------------4------------|---------------4-------------|
4)---4-5-4-5-7-5-4---5-4-5-4----|---4---4-5-4-7---5-4-5-4-----|
5)-7-------------------------7~-|-7---7-------------------7---|

4)-9--------------5----------------7-------------9--4--5--------5-4-----|
5)-7-------5------3-------7--------5--------9----7--2--3--2-3-2-----7-5-|
6)---------3--------------5-----------------7---------------------------|

4)-9--------------5----------------7-------------9--4--5--------5-4-----|
5)-7-------5------3-------7--------5--------9----7--2--3--2-3-2-----7-5-|
6)---------3--------------5-----------------7---------------------------|

4)-9--9-9-9--9-9-9--9-9-9--9-|-5--5-5-5--5-5-5--5-5-5--5-|-7--7-7-7--7-7-7--7-7-7--7-|
5)-7--7-7-7--7-7-7--7-7-7--7-|-3--3-3-3--3-3-3--3-3-3--3-|-5--5-5-5--5-5-5--5-5-5--5-|

4)-9--4--5--------5-4-----|
5)-7--2--3--2-3-2-----7-5-|

3)-----------------4------------|---------------4-------------|
4)---4-5-4-5-7-5-4---5-4-5-4----|---4---4-5-4-7---5-4-5-4-----|
5)-7-------------------------7~-|-7---7-------------------7---|

3)-----------------4------------|---------------4-------------|
4)---4-5-4-5-7-5-4---5-4-5-4----|---4---4-5-4-7---5-4-5-4-----|
5)-7-------------------------7~-|-7---7-------------------7---|

3)-----------------4------------|---------------4-------------|
4)---4-5-4-5-7-5-4---5-4-5-4----|---4---4-5-4-7---5-4-5-4-----|
5)-7-------------------------7~-|-7---7-------------------7---|

3)-----------------4------------|---------------4-------------|
4)---4-5-4-5-7-5-4---5-4-5-4----|---4---4-5-4-7---5-4-5-4-----|
5)-7-------------------------7~-|-7---7-------------------7---|

3)----------4--4------|-------4-----------4------|----------4--4-----|-------4-----------4-----|
4)------4-5------5-4--|---4-5---5-4---4-5---5-4--|------4-5------5-4-|---4-5---5-4---4-5---5-4-|
5)-7--7---------------|-7-----------7------------|-3--7--------------|-3-----------3-----------|


3)----------4--4------|-------4-----------4------|----------4--4-----|-------4-----------4-----|
4)------4-5------5-4--|---4-5---5-4---4-5---5-4--|------4-5------5-4-|---4-5---5-4---4-5---5-4-|
5)-7--7---------------|-7-----------7------------|-3--7--------------|-3-----------3-----------|


1.gtr.
3)----------4--4------|-------4-----------4------|----------4--4-----|-------4-----------4-----|
4)------4-5------5-4--|---4-5---5-4---4-5---5-4--|------4-5------5-4-|---4-5---5-4---4-5---5-4-|
5)-7--7---------------|-7-----------7------------|-3--7--------------|-3-----------3-----------|

2.gtr.

3)----------7--7-----|--------7------------7-----|----------9--7-----|-------7------------7-----|
4)-5--5-7-9------9-7-|-5--7-9---9-7-5--7-9---9-7-|-5--5-7-9------9-7-|-5--7-9--9-7-5--7-9---9-7-|
1.gtr.

3)----------4--4------|-------4-----------4------|----------4--4-----|-------4-----------4-----|
4)------4-5------5-4--|---4-5---5-4---4-5---5-4--|------4-5------5-4-|---4-5---5-4---4-5---5-4-|
5)-7--7---------------|-7-----------7------------|-3--7--------------|-3-----------3-----------|
2.gtr.

3)----------7--7-----|--------7------------7-----|----------9--7-----|-------7------------7-----|
4)-5--5-7-9------9-7-|-5--7-9---9-7-5--7-9---9-7-|-5--5-7-9------9-7-|-5--7-9--9-7-5--7-9---9-7-|

1.gtr.
4)-9--9-9-9--9-9-9--9-9-9--9-|-5--5-5-5--5-5-5--5-5-5--5-|-7--7-7-7--7-7-7--7-7-7--7-|
5)-7--7-7-7--7-7-7--7-7-7--7-|-3--3-3-3--3-3-3--3-3-3--3-|-5--5-5-5--5-5-5--5-5-5--5-|

4)-9--9-9-9--9-9--5-4---5-4---|
5)-7--7-7-7--7-7------7-----7-|

4)-9--9-9-9--9-9-9--9-9-9--9-|-5--5-5-5--5-5-5--5-5-5--5-|-7--7-7-7--7-7-7--7-7-7--7-|
5)-7--7-7-7--7-7-7--7-7-7--7-|-3--3-3-3--3-3-3--3-3-3--3-|-5--5-5-5--5-5-5--5-5-5--5-|

4)-9--9-9-9--9-9--5-4---5-4---|
5)-7--7-7-7--7-7------7-----7-|

4)-9--9-9-9--9-9-9--9-9-9--9-|-5--5-5-5--5-5-5--5-5-5--5-|-7--7-7-7--7-7-7--7-7-7--7-|
5)-7--7-7-7--7-7-7--7-7-7--7-|-3--3-3-3--3-3-3--3-3-3--3-|-5--5-5-5--5-5-5--5-5-5--5-|

4)-9--9-9-9--9-9--5-4---5-4---|
5)-7--7-7-7--7-7------7-----7-|

4)-9--9-9-9--9-9-9--9-9-9--9-|-5--5-5-5--5-5-5--5-5-5--5-|-7--7-7-7--7-7-7--7-7-7--7-|
5)-7--7-7-7--7-7-7--7-7-7--7-|-3--3-3-3--3-3-3--3-3-3--3-|-5--5-5-5--5-5-5--5-5-5--5-|

4)-9--9-9-9--9-9--5-4---5-4---|
5)-7--7-7-7--7-7------7-----7-|


3)----------4--4------|-------4-----------4------|----------4--4-----|-------4-----------4-----|
4)------4-5------5-4--|---4-5---5-4---4-5---5-4--|------4-5------5-4-|---4-5---5-4---4-5---5-4-|
5)-7--7---------------|-7-----------7------------|-3--7--------------|-3-----------3-----------|


3)----------4--4------|-------4-----------4------|----------4--4-----|-------4-----------4-----|
4)------4-5------5-4--|---4-5---5-4---4-5---5-4--|------4-5------5-4-|---4-5---5-4---4-5---5-4-|
5)-7--7---------------|-7-----------7------------|-3--7--------------|-3-----------3-----------|

2)---12----------12-------|---12----------12-------|---12----------12-------|
3)-9----11-12-9-----11-12-|-9----11-12-9-----11-12-|-9----11-12-9-----11-12-|

2)---12----------12-------|---12----------12-------|---12----------12-------|
3)-9----11-12-9-----11-12-|-9----11-12-9-----11-12-|-9----11-12-9-----11-12-|

2)---12----------12-------|---12----------12-------|
3)-9----11-12-9-----11-12-|-9----11-12-9-----11-12-| 


Аккорды ко всем песням Cradle Of Filth :


"From The Cradle To Enslave"
"Hallowed Be Thy Name (Shallow Be My Grave)"
"Scorched Earth Erotica"
Аккорды к песням