akk.silacheloveka.ru
Аккорды песен

 


Аккорды песен

Добро пожаловать на сайт с текстами песен и аккордами! Введите название песни или исполнителя и нажмите на кнопку поиска. Удачного просмотра нашего сайта.А  Б  В  Г  Д  Е  Ё  Ж  З  И  К  Л  М  Н  О  П  Р  С  Т  У  Ф  Х  Ц  Ч  Ш  Э  Ю  Я  
A  B  C  D  E  F  G  H  I  J  K  L  M  N  O  P  R  S  T  U  V  W  X  Y  Z  
Аккорды - "Kai Tu Atversi Man Duris" - Andrius Mamontovas

Аккорды - Andrius Mamontovas - "Kai Tu Atversi Man Duris"



|Em | C | G |D Am| (X3)

Bass:
 ... G ... D ... Am ...
E|-3--3-----------------
A|------0-2-3-5--5-3-2--

{Verse:}
Em        C          G       D Am  
Kai tu atversi man duris 
{Tas prie kuriu ilgai buvau
Kai nieks manes nebestabdys
As liksiu ten kur atejau
      
      {Chorus:}
      C                  G               D   
	As sudegsiu ugnyje               Hey 
	Kai atsikalaupsiu pries tave     O-o-o
	Ir musu akys vel spindes 
	Ir zvaigzdes vel i mus ziures

{Verse:}
Kai tu atversi man duris
As atsidursiu viduje
Ir nesibaigianti naktis
Su tavimi ir tavyje

	{Chorus }

        SOLO:
e|-------------------------------------------------------
B|-------------------------------------------------------
G|----------------------------------------4---/7--2------
D|-/5---5-4-2-0--------------/5---5-4-2-0----------------
A|--------------2---/5--0--------------------------------
E|-------------------------------------------------------

e|-3---3-2-0----------------3---3-2-3-5-7--10--12--5---
B|-----------3-0---/3----------------------------------
G|---------------------2-------------------------------
D|-----------------------------------------------------
A|-----------------------------------------------------
E|-----------------------------------------------------

{Verse:}
Kai tu atversi man duris
Mes atsibusime greta 
Kai musu pirstai pasiklys
Vienas kito plaukuose
        
        {Chorus:}
	As sudegsiu ugnyje             Hey 
	Kai atsikalaupsiu pries tave    O-o-o
	Ir musu akys vel spindes 
	Ir zvaigzdes vel i mus ziures   Ooooo
        As sudegsiu ugnyje             Hey 
	Kai atsikalaupsiu pries tave    O-o-o
	Ir musu akys vel spindes 
	Ir zvaigzdes vel i mus ziures

Kai tu atversi man duris... 


Аккорды ко всем песням Andrius Mamontovas :


"Kai Tu Atversi Man Duris"
"Ufonautai"
Аккорды к песням