akk.silacheloveka.ru
Аккорды песен

 


Аккорды песен

Добро пожаловать на сайт с текстами песен и аккордами! Введите название песни или исполнителя и нажмите на кнопку поиска. Удачного просмотра нашего сайта.А  Б  В  Г  Д  Е  Ё  Ж  З  И  К  Л  М  Н  О  П  Р  С  Т  У  Ф  Х  Ц  Ч  Ш  Э  Ю  Я  
A  B  C  D  E  F  G  H  I  J  K  L  M  N  O  P  R  S  T  U  V  W  X  Y  Z  
Аккорды - "Wicked Game" - Chris Isaak

Аккорды - Chris Isaak - "Wicked Game"


sl-slide
p-pull
h-hammer

Into solo:
1--------------------------------------------------------------------------------------------------------
2-0----------7----------------7----sl---0------0------7-------5---3----2-------------0-----0------
3----------------------------------------------------------------------------------------------------1--
4-------------------------------------------------------------------------------------------2---2------
5--------------------------------------------------------------------------------------------------------
6--------------------------------------------------------------------------------------------------------

1--------2--------0--------------------------------------------2--------0------------------------------------------------
2----------3—3-----3--3--2--------------------------------------3--3------3--3—2----------------------------------
3--------------------------------4-4-4-4-2----1---1h2-sl-4-----------------------------4-4-4-4-2----1---1h2-sl-4-
4--------------------------------------------------------------------------------------------------------------------------
5--------------------------------------------------------------------------------------------------------------------------
6--------------------------------------------------------------------------------------------------------------------------

Main chorus part: (0)
1--------------2------0-----------------------------------------2--------0------------------------------------
2----------------3-3-----3-3--2------------------------------------3-3-----3-3--2--------------------------
3--------------------------------4-4-4-4-2-1---1h2-sl-4---------------------------4-4-4-4-2-1-----------
4---------------------------------------------------------------------------------------------------------------
5---------------------------------------------------------------------------------------------------------------
6---------------------------------------------------------------------------------------------------------------
Solo played with into, and repet with chorus
 
whit main path played, after some accods, this:
(1)
1-----------
2----0------
3----------1
4---2---2---
5-----------
6-----------

     or This:
(2)
3:--1h2-sl-4

looks like this:

… I´d need somebody like you
                                                  3:--1h2-sl-4,
But it weary hard to vision, and I’m has exchanged it’s application, other
It is a little easy.

 
Main path:

Hm   A                   E
The world was on fire, no-one could save me but you
It´s strange what desire will make foolish people do (1)
I´d never dreamed that I´d need somebody like you (1)
And I´d never dreamed that I´d need somebody like you (2)

(there (0) path repet 4x)

Hm  A                   E
   (0)
No I don´t wanna fall in love (0)
this world is always gonna break your heart(2)
  (0)
No I don´t wanna fall in love
this world is always gonna break your heart(2)
..with you(0)(2)
..with you(0)
this world is always gonna break your heart(2)

Hm            A    
What a wicked game to play
E
To make me feel this way
What a wicked thing to do
To let me dream of you
What a wicked thing to say
You never felt this way
What a wicked thing you do
To make me dream of you

No I don´t wanna fall in love
this world is always gonna break your heart
No I don´t wanna fall in love
this world is always gonna break your heart
..with you
..with you
this world is always gonna break your heart

The world was on fire, no-one could save me but you
It´s strange what desire will make foolish people do
No and I never dreamed that I´d love somebody like you
I´ll never dream that I lose somebody like you, no

Now I wanna fall in love
This world is always gonna break your heart
Now I wanna fall in lust
This world is always gonna break your heart
..with you
..with you
this world is always gonna break your heart

Hm     A         E
Nobody loves no-one

Notes: Sorry for bed English 


Аккорды ко всем песням Chris Isaak :


"Wicked Game"
Аккорды к песням